  0
SECTION
  2
HEADER
  9
$ACADVER
  1
AC1015
  9
$ACADMAINTVER
 70
     6
  9
$DWGCODEPAGE
  3
ANSI_1254
  9
$INSBASE
 10
0.0
 20
0.0
 30
0.0
  9
$EXTMIN
 10
0.0
 20
0.0
 30
0.0
  9
$EXTMAX
 10
279.4
 20
215.9
 30
0.0
  9
$LIMMIN
 10
0.0
 20
0.0
  9
$LIMMAX
 10
279.4
 20
215.9
  9
$ORTHOMODE
 70
     0
  9
$REGENMODE
 70
     1
  9
$FILLMODE
 70
     1
  9
$QTEXTMODE
 70
     0
  9
$MIRRTEXT
 70
     1
  9
$LTSCALE
 40
1.0
  9
$ATTMODE
 70
     1
  9
$TEXTSIZE
 40
3.5
  9
$TRACEWID
 40
1.0
  9
$TEXTSTYLE
  7
Standard
  9
$CLAYER
  8
0
  9
$CELTYPE
  6
ByLayer
  9
$CECOLOR
 62
   256
  9
$CELTSCALE
 40
1.0
  9
$DISPSILH
 70
     0
  9
$DIMSCALE
 40
1.0
  9
$DIMASZ
 40
3.5
  9
$DIMEXO
 40
1.0
  9
$DIMDLI
 40
3.75
  9
$DIMRND
 40
0.0
  9
$DIMDLE
 40
0.0
  9
$DIMEXE
 40
1.0
  9
$DIMTP
 40
0.0
  9
$DIMTM
 40
0.0
  9
$DIMTXT
 40
3.5
  9
$DIMCEN
 40
2.5
  9
$DIMTSZ
 40
0.0
  9
$DIMTOL
 70
     0
  9
$DIMLIM
 70
     0
  9
$DIMTIH
 70
     1
  9
$DIMTOH
 70
     1
  9
$DIMSE1
 70
     0
  9
$DIMSE2
 70
     0
  9
$DIMTAD
 70
     1
  9
$DIMZIN
 70
     0
  9
$DIMBLK
  1

  9
$DIMASO
 70
     1
  9
$DIMSHO
 70
     1
  9
$DIMPOST
  1

  9
$DIMAPOST
  1

  9
$DIMALT
 70
     0
  9
$DIMALTD
 70
     3
  9
$DIMALTF
 40
0.0393700787
  9
$DIMLFAC
 40
1.0
  9
$DIMTOFL
 70
     1
  9
$DIMTVP
 40
0.0
  9
$DIMTIX
 70
     0
  9
$DIMSOXD
 70
     0
  9
$DIMSAH
 70
     0
  9
$DIMBLK1
  1

  9
$DIMBLK2
  1

  9
$DIMSTYLE
  2
ISO-25
  9
$DIMCLRD
 70
     0
  9
$DIMCLRE
 70
     0
  9
$DIMCLRT
 70
     0
  9
$DIMTFAC
 40
1.0
  9
$DIMGAP
 40
1.524
  9
$DIMJUST
 70
     0
  9
$DIMSD1
 70
     0
  9
$DIMSD2
 70
     0
  9
$DIMTOLJ
 70
     0
  9
$DIMTZIN
 70
     0
  9
$DIMALTZ
 70
     0
  9
$DIMALTTZ
 70
     0
  9
$DIMUPT
 70
     0
  9
$DIMDEC
 70
     2
  9
$DIMTDEC
 70
     2
  9
$DIMALTU
 70
     2
  9
$DIMALTTD
 70
     3
  9
$DIMTXSTY
  7
Standard
  9
$DIMAUNIT
 70
     0
  9
$DIMADEC
 70
     2
  9
$DIMALTRND
 40
0.0
  9
$DIMAZIN
 70
     0
  9
$DIMDSEP
 70
    44
  9
$DIMATFIT
 70
     3
  9
$DIMFRAC
 70
     0
  9
$DIMLDRBLK
  1

  9
$DIMLUNIT
 70
     2
  9
$DIMLWD
 70
    -2
  9
$DIMLWE
 70
    -2
  9
$DIMTMOVE
 70
     0
  9
$LUNITS
 70
     2
  9
$LUPREC
 70
     2
  9
$SKETCHINC
 40
1.0
  9
$FILLETRAD
 40
10.0
  9
$AUNITS
 70
     0
  9
$AUPREC
 70
     2
  9
$MENU
  1
.
  9
$ELEVATION
 40
0.0
  9
$PELEVATION
 40
0.0
  9
$THICKNESS
 40
0.0
  9
$LIMCHECK
 70
     0
  9
$CHAMFERA
 40
0.0
  9
$CHAMFERB
 40
0.0
  9
$CHAMFERC
 40
0.0
  9
$CHAMFERD
 40
0.0
  9
$SKPOLY
 70
     0
  9
$TDCREATE
 40
2458985.682292604
  9
$TDUCREATE
 40
2458985.557292604
  9
$TDUPDATE
 40
2458985.68229287
  9
$TDUUPDATE
 40
2458985.55729287
  9
$TDINDWG
 40
0.0000000116
  9
$TDUSRTIMER
 40
0.0000000116
  9
$USRTIMER
 70
     1
  9
$ANGBASE
 50
0.0
  9
$ANGDIR
 70
     0
  9
$PDMODE
 70
     0
  9
$PDSIZE
 40
-1.0
  9
$PLINEWID
 40
0.0
  9
$SPLFRAME
 70
     0
  9
$SPLINETYPE
 70
     6
  9
$SPLINESEGS
 70
     8
  9
$HANDSEED
  5
CB
  9
$SURFTAB1
 70
     6
  9
$SURFTAB2
 70
     6
  9
$SURFTYPE
 70
     6
  9
$SURFU
 70
     6
  9
$SURFV
 70
     6
  9
$UCSBASE
  2

  9
$UCSNAME
  2

  9
$UCSORG
 10
0.0
 20
0.0
 30
0.0
  9
$UCSXDIR
 10
1.0
 20
0.0
 30
0.0
  9
$UCSYDIR
 10
0.0
 20
1.0
 30
0.0
  9
$UCSORTHOREF
  2

  9
$UCSORTHOVIEW
 70
     0
  9
$UCSORGTOP
 10
0.0
 20
0.0
 30
0.0
  9
$UCSORGBOTTOM
 10
0.0
 20
0.0
 30
0.0
  9
$UCSORGLEFT
 10
0.0
 20
0.0
 30
0.0
  9
$UCSORGRIGHT
 10
0.0
 20
0.0
 30
0.0
  9
$UCSORGFRONT
 10
0.0
 20
0.0
 30
0.0
  9
$UCSORGBACK
 10
0.0
 20
0.0
 30
0.0
  9
$PUCSBASE
  2

  9
$PUCSNAME
  2

  9
$PUCSORG
 10
0.0
 20
0.0
 30
0.0
  9
$PUCSXDIR
 10
1.0
 20
0.0
 30
0.0
  9
$PUCSYDIR
 10
0.0
 20
1.0
 30
0.0
  9
$PUCSORTHOREF
  2

  9
$PUCSORTHOVIEW
 70
     0
  9
$PUCSORGTOP
 10
0.0
 20
0.0
 30
0.0
  9
$PUCSORGBOTTOM
 10
0.0
 20
0.0
 30
0.0
  9
$PUCSORGLEFT
 10
0.0
 20
0.0
 30
0.0
  9
$PUCSORGRIGHT
 10
0.0
 20
0.0
 30
0.0
  9
$PUCSORGFRONT
 10
0.0
 20
0.0
 30
0.0
  9
$PUCSORGBACK
 10
0.0
 20
0.0
 30
0.0
  9
$USERI1
 70
     0
  9
$USERI2
 70
     0
  9
$USERI3
 70
     0
  9
$USERI4
 70
     0
  9
$USERI5
 70
     0
  9
$USERR1
 40
0.0
  9
$USERR2
 40
0.0
  9
$USERR3
 40
0.0
  9
$USERR4
 40
0.0
  9
$USERR5
 40
0.0
  9
$WORLDVIEW
 70
     1
  9
$SHADEDGE
 70
     3
  9
$SHADEDIF
 70
    70
  9
$TILEMODE
 70
     1
  9
$MAXACTVP
 70
    64
  9
$PINSBASE
 10
0.0
 20
0.0
 30
0.0
  9
$PLIMCHECK
 70
     0
  9
$PEXTMIN
 10
1.0000000000E+20
 20
1.0000000000E+20
 30
1.0000000000E+20
  9
$PEXTMAX
 10
-1.0000000000E+20
 20
-1.0000000000E+20
 30
-1.0000000000E+20
  9
$PLIMMIN
 10
0.0
 20
0.0
  9
$PLIMMAX
 10
420.0
 20
297.0
  9
$UNITMODE
 70
     0
  9
$VISRETAIN
 70
     1
  9
$PLINEGEN
 70
     0
  9
$PSLTSCALE
 70
     1
  9
$TREEDEPTH
 70
  3020
  9
$CMLSTYLE
  2
Standard
  9
$CMLJUST
 70
     0
  9
$CMLSCALE
 40
20.0
  9
$PROXYGRAPHICS
 70
     1
  9
$MEASUREMENT
 70
     1
  9
$CELWEIGHT
370
    -1
  9
$ENDCAPS
280
     0
  9
$JOINSTYLE
280
     0
  9
$LWDISPLAY
290
     1
  9
$INSUNITS
 70
     4
  9
$HYPERLINKBASE
  1

  9
$STYLESHEET
  1

  9
$XEDIT
290
     1
  9
$CEPSNTYPE
380
     0
  9
$PSTYLEMODE
290
     1
  9
$FINGERPRINTGUID
  2
{28cf2925-7851-4b38-a461-cc7d5f90a952}
  9
$VERSIONGUID
  2
{FAEB1C32-E019-11D5-929B-00C0DF256EC4}
  9
$EXTNAMES
290
     1
  9
$PSVPSCALE
 40
0.0
  9
$OLESTARTUP
290
     0
  0
ENDSEC
  0
SECTION
  2
CLASSES
  0
CLASS
  1
ACDBDICTIONARYWDFLT
  2
AcDbDictionaryWithDefault
  3
ObjectDBX Classes
 90
        0
280
     0
281
     0
  0
CLASS
  1
VISUALSTYLE
  2
AcDbVisualStyle
  3
ObjectDBX Classes
 90
     4095
280
     0
281
     0
  0
CLASS
  1
MATERIAL
  2
AcDbMaterial
  3
ObjectDBX Classes
 90
     1153
280
     0
281
     0
  0
CLASS
  1
SCALE
  2
AcDbScale
  3
ObjectDBX Classes
 90
     1153
280
     0
281
     0
  0
CLASS
  1
TABLESTYLE
  2
AcDbTableStyle
  3
ObjectDBX Classes
 90
     4095
280
     0
281
     0
  0
CLASS
  1
MLEADERSTYLE
  2
AcDbMLeaderStyle
  3
ACDB_MLEADERSTYLE_CLASS
 90
     4095
280
     0
281
     0
  0
CLASS
  1
SUN
  2
AcDbSun
  3
SCENEOE
 90
     1153
280
     0
281
     0
  0
CLASS
  1
ACDBPLACEHOLDER
  2
AcDbPlaceHolder
  3
ObjectDBX Classes
 90
        0
280
     0
281
     0
  0
CLASS
  1
LAYOUT
  2
AcDbLayout
  3
ObjectDBX Classes
 90
        0
280
     0
281
     0
  0
ENDSEC
  0
SECTION
  2
TABLES
  0
TABLE
  2
VPORT
  5
8
330
0
100
AcDbSymbolTable
 70
     1
  0
VPORT
  5
29
330
8
100
AcDbSymbolTableRecord
100
AcDbViewportTableRecord
  2
*Active
 70
     0
 10
0.0
 20
0.0
 11
1.0
 21
1.0
 12
139.7
 22
107.95
 13
0.0
 23
0.0
 14
10.0
 24
10.0
 15
10.0
 25
10.0
 16
0.0
 26
0.0
 36
1.0
 17
0.0
 27
0.0
 37
0.0
 40
215.9
 41
1.2941176471
 42
50.0
 43
0.0
 44
0.0
 50
0.0
 51
0.0
 71
     0
 72
  2000
 73
     1
 74
     3
 75
     0
 76
     0
 77
     0
 78
     0
281
     0
 65
     1
110
0.0
120
0.0
130
0.0
111
1.0
121
0.0
131
0.0
112
0.0
122
1.0
132
0.0
 79
     0
146
0.0
  0
ENDTAB
  0
TABLE
  2
LTYPE
  5
5
330
0
100
AcDbSymbolTable
 70
     6
  0
LTYPE
  5
14
330
5
100
AcDbSymbolTableRecord
100
AcDbLinetypeTableRecord
  2
ByBlock
 70
     0
  3

 72
    65
 73
     0
 40
0.0
  0
LTYPE
  5
15
330
5
100
AcDbSymbolTableRecord
100
AcDbLinetypeTableRecord
  2
ByLayer
 70
     0
  3

 72
    65
 73
     0
 40
0.0
  0
LTYPE
  5
16
330
5
100
AcDbSymbolTableRecord
100
AcDbLinetypeTableRecord
  2
Continuous
 70
     0
  3
Solid line
 72
    65
 73
     0
 40
0.0
  0
LTYPE
  5
6E
330
5
100
AcDbSymbolTableRecord
100
AcDbLinetypeTableRecord
  2
HIDDEN
 70
     0
  3
Hidden __ __ __ __ __ __ __ __ __ __ __ __ __ __
 72
    65
 73
     2
 40
1.905
 49
1.27
 74
     0
 49
-0.635
 74
     0
  0
LTYPE
  5
6F
330
5
100
AcDbSymbolTableRecord
100
AcDbLinetypeTableRecord
  2
PHANTOM
 70
     0
  3
Phantom ______  __  __  ______  __  __  ______
 72
    65
 73
     6
 40
12.7
 49
6.35
 74
     0
 49
-1.27
 74
     0
 49
1.27
 74
     0
 49
-1.27
 74
     0
 49
1.27
 74
     0
 49
-1.27
 74
     0
  0
LTYPE
  5
70
330
5
100
AcDbSymbolTableRecord
100
AcDbLinetypeTableRecord
  2
CENTER
 70
     0
  3
Center ____ _ ____ _ ____ _ ____ _ ____ _ ____
 72
    65
 73
     4
 40
10.16
 49
6.35
 74
     0
 49
-1.27
 74
     0
 49
1.27
 74
     0
 49
-1.27
 74
     0
  0
LTYPE
  5
71
330
5
100
AcDbSymbolTableRecord
100
AcDbLinetypeTableRecord
  2
CENTERX2
 70
     0
  3
Center (2x) ________  __  ________  __  _____
 72
    65
 73
     4
 40
20.32
 49
12.7
 74
     0
 49
-2.54
 74
     0
 49
2.54
 74
     0
 49
-2.54
 74
     0
  0
LTYPE
  5
72
330
5
100
AcDbSymbolTableRecord
100
AcDbLinetypeTableRecord
  2
DOT2
 70
     0
  3
Dot (.5x) ........................................
 72
    65
 73
     2
 40
0.635
 49
0.0
 74
     0
 49
-0.635
 74
     0
  0
ENDTAB
  0
TABLE
  2
LAYER
  5
2
330
0
100
AcDbSymbolTable
 70
    17
  0
LAYER
  5
10
330
2
100
AcDbSymbolTableRecord
100
AcDbLayerTableRecord
  2
0
 70
     0
 62
     7
  6
Continuous
370
    -3
390
F
  0
LAYER
  5
73
330
2
100
AcDbSymbolTableRecord
100
AcDbLayerTableRecord
  2
FORMAT
 70
     0
 62
     7
  6
Continuous
370
    -3
390
F
  0
LAYER
  5
74
330
2
100
AcDbSymbolTableRecord
100
AcDbLayerTableRecord
  2
YARDIMCI_GEOMETRI
 70
     0
 62
    -6
  6
Continuous
290
     0
370
    -3
390
F
  0
LAYER
  5
75
330
2
100
AcDbSymbolTableRecord
100
AcDbLayerTableRecord
  2
SAYFA_CERCEVESI
 70
     0
 62
     7
  6
Continuous
370
    25
390
F
  0
LAYER
  5
76
330
2
100
AcDbSymbolTableRecord
100
AcDbLayerTableRecord
  2
ANTET
 70
     0
 62
     7
  6
Continuous
370
    -3
390
F
  0
LAYER
  5
77
330
2
100
AcDbSymbolTableRecord
100
AcDbLayerTableRecord
  2
OLCU
 70
     0
 62
   150
  6
Continuous
370
    -3
390
F
  0
LAYER
  5
78
330
2
100
AcDbSymbolTableRecord
100
AcDbLayerTableRecord
  2
METIN
 70
     0
 62
    96
  6
Continuous
370
    -3
390
F
  0
LAYER
  5
79
330
2
100
AcDbSymbolTableRecord
100
AcDbLayerTableRecord
  2
BALON
 70
     0
 62
     5
  6
Continuous
370
    -3
390
F
  0
LAYER
  5
7A
330
2
100
AcDbSymbolTableRecord
100
AcDbLayerTableRecord
  2
VURGU
 70
     0
 62
     7
  6
Continuous
370
    -3
390
F
  0
LAYER
  5
7B
330
2
100
AcDbSymbolTableRecord
100
AcDbLayerTableRecord
  2
SILIK
 70
     0
 62
     7
  6
Continuous
370
    -3
390
F
  0
LAYER
  5
7C
330
2
100
AcDbSymbolTableRecord
100
AcDbLayerTableRecord
  2
MODEL
 70
     0
 62
     7
  6
Continuous
370
    -3
390
F
  0
LAYER
  5
7D
330
2
100
AcDbSymbolTableRecord
100
AcDbLayerTableRecord
  2
DETAYLANDıRMA
 70
     0
 62
   190
  6
Continuous
370
    -3
390
F
  0
LAYER
  5
7E
330
2
100
AcDbSymbolTableRecord
100
AcDbLayerTableRecord
  2
TOLERANS
 70
     0
 62
   230
  6
Continuous
370
    -3
390
F
  0
LAYER
  5
7F
330
2
100
AcDbSymbolTableRecord
100
AcDbLayerTableRecord
  2
MERKEZ_CIZGILERI
 70
     0
 62
    30
  6
Continuous
370
    -3
390
F
  0
LAYER
  5
80
330
2
100
AcDbSymbolTableRecord
100
AcDbLayerTableRecord
  2
KESIT-DETAY_CIZGILERI
 70
     0
 62
     7
  6
Continuous
370
    -3
390
F
  0
LAYER
  5
81
330
2
100
AcDbSymbolTableRecord
100
AcDbLayerTableRecord
  2
\U+041E\U+0421\U+0415\U+0412\U+042B\U+0415
 70
     0
 62
     7
  6
Continuous
370
    -3
390
F
  0
LAYER
  5
82
330
2
100
AcDbSymbolTableRecord
100
AcDbLayerTableRecord
  2
\U+0412\U+041E\U+0414\U+042F\U+041D\U+042B\U+0415_\U+0417\U+041D\U+0410\U+041A\U+0418
 70
     0
 62
    11
  6
Continuous
370
    -3
390
F
  0
ENDTAB
  0
TABLE
  2
STYLE
  5
3
330
0
100
AcDbSymbolTable
 70
     1
  0
STYLE
  5
11
330
3
100
AcDbSymbolTableRecord
100
AcDbTextStyleTableRecord
  2
Standard
 70
     0
 40
0.0
 41
1.0
 50
0.0
 71
     0
 42
3.5
  3
txt
  4

  0
ENDTAB
  0
TABLE
  2
VIEW
  5
6
330
0
100
AcDbSymbolTable
 70
     0
  0
ENDTAB
  0
TABLE
  2
UCS
  5
7
330
0
100
AcDbSymbolTable
 70
     0
  0
ENDTAB
  0
TABLE
  2
APPID
  5
9
330
0
100
AcDbSymbolTable
 70
     1
  0
APPID
  5
12
330
9
100
AcDbSymbolTableRecord
100
AcDbRegAppTableRecord
  2
ACAD
 70
     0
  0
ENDTAB
  0
TABLE
  2
DIMSTYLE
  5
A
330
0
100
AcDbSymbolTable
 70
     1
100
AcDbDimStyleTable
  0
DIMSTYLE
105
27
330
A
100
AcDbSymbolTableRecord
100
AcDbDimStyleTableRecord
  2
ISO-25
 70
     0
 41
2.5
 42
0.625
 43
3.75
 44
1.25
 73
     0
 74
     0
 77
     1
 78
     8
140
2.5
141
2.5
143
0.0393700787
147
0.625
171
     3
172
     1
178
     0
271
     2
272
     2
274
     3
278
    44
283
     0
284
     8
340
11
  0
ENDTAB
  0
TABLE
  2
BLOCK_RECORD
  5
1
330
0
100
AcDbSymbolTable
 70
     3
  0
BLOCK_RECORD
  5
1F
330
1
100
AcDbSymbolTableRecord
100
AcDbBlockTableRecord
  2
*Model_Space
340
22
  0
BLOCK_RECORD
  5
1B
330
1
100
AcDbSymbolTableRecord
100
AcDbBlockTableRecord
  2
*Paper_Space
340
1E
  0
BLOCK_RECORD
  5
23
330
1
100
AcDbSymbolTableRecord
100
AcDbBlockTableRecord
  2
*Paper_Space0
340
26
  0
BLOCK_RECORD
  5
88
330
1
100
AcDbSymbolTableRecord
100
AcDbBlockTableRecord
  2
SW_CENTERMARKSYMBOL_0
340
0
102
{BLKREFS
331
93
102
}
  0
BLOCK_RECORD
  5
B2
330
1
100
AcDbSymbolTableRecord
100
AcDbBlockTableRecord
  2
SW_CENTERMARKSYMBOL_1
340
0
102
{BLKREFS
331
BD
102
}
  0
ENDTAB
  0
ENDSEC
  0
SECTION
  2
BLOCKS
  0
BLOCK
  5
20
330
1F
100
AcDbEntity
  8
0
100
AcDbBlockBegin
  2
*Model_Space
 70
     0
 10
0.0
 20
0.0
 30
0.0
  3
*Model_Space
  1

  0
ENDBLK
  5
21
330
1F
100
AcDbEntity
  8
0
100
AcDbBlockEnd
  0
BLOCK
  5
1C
330
1B
100
AcDbEntity
 67
     1
  8
0
100
AcDbBlockBegin
  2
*Paper_Space
 70
     0
 10
0.0
 20
0.0
 30
0.0
  3
*Paper_Space
  1

  0
ENDBLK
  5
1D
330
1B
100
AcDbEntity
 67
     1
  8
0
100
AcDbBlockEnd
  0
BLOCK
  5
24
330
23
100
AcDbEntity
  8
0
100
AcDbBlockBegin
  2
*Paper_Space0
 70
     0
 10
0.0
 20
0.0
 30
0.0
  3
*Paper_Space0
  1

  0
ENDBLK
  5
25
330
23
100
AcDbEntity
  8
0
100
AcDbBlockEnd
  0
BLOCK
  5
89
330
88
100
AcDbEntity
  8
0
100
AcDbBlockBegin
  2
SW_CENTERMARKSYMBOL_0
 70
     0
 10
0.0
 20
0.0
 30
0.0
  3
SW_CENTERMARKSYMBOL_0
  1

  0
LINE
  5
8B
330
88
100
AcDbEntity
  8
FORMAT
 62
     0
100
AcDbLine
 10
0.0
 20
0.0
 30
0.0
 11
0.0
 21
2.5
 31
0.0
  0
LINE
  5
8C
330
88
100
AcDbEntity
  8
FORMAT
 62
     0
100
AcDbLine
 10
0.0
 20
0.0
 30
0.0
 11
-2.5
 21
0.0
 31
0.0
  0
LINE
  5
8D
330
88
100
AcDbEntity
  8
FORMAT
 62
     0
100
AcDbLine
 10
0.0
 20
0.0
 30
0.0
 11
0.0
 21
-2.5
 31
0.0
  0
LINE
  5
8E
330
88
100
AcDbEntity
  8
FORMAT
 62
     0
100
AcDbLine
 10
0.0
 20
0.0
 30
0.0
 11
2.5
 21
0.0
 31
0.0
  0
LINE
  5
8F
330
88
100
AcDbEntity
  8
FORMAT
 62
     0
100
AcDbLine
 10
0.0
 20
5.0
 30
0.0
 11
0.0
 21
57.5
 31
0.0
  0
LINE
  5
90
330
88
100
AcDbEntity
  8
FORMAT
 62
     0
100
AcDbLine
 10
-5.0
 20
0.0
 30
0.0
 11
-57.5
 21
0.0
 31
0.0
  0
LINE
  5
91
330
88
100
AcDbEntity
  8
FORMAT
 62
     0
100
AcDbLine
 10
0.0
 20
-5.0
 30
0.0
 11
0.0
 21
-57.5
 31
0.0
  0
LINE
  5
92
330
88
100
AcDbEntity
  8
FORMAT
 62
     0
100
AcDbLine
 10
5.0
 20
0.0
 30
0.0
 11
57.5
 21
0.0
 31
0.0
  0
ENDBLK
  5
8A
330
88
100
AcDbEntity
  8
0
100
AcDbBlockEnd
  0
BLOCK
  5
B3
330
B2
100
AcDbEntity
  8
0
100
AcDbBlockBegin
  2
SW_CENTERMARKSYMBOL_1
 70
     0
 10
0.0
 20
0.0
 30
0.0
  3
SW_CENTERMARKSYMBOL_1
  1

  0
LINE
  5
B5
330
B2
100
AcDbEntity
  8
FORMAT
 62
     0
100
AcDbLine
 10
0.0
 20
0.0
 30
0.0
 11
0.0
 21
2.5
 31
0.0
  0
LINE
  5
B6
330
B2
100
AcDbEntity
  8
FORMAT
 62
     0
100
AcDbLine
 10
0.0
 20
0.0
 30
0.0
 11
-2.5
 21
0.0
 31
0.0
  0
LINE
  5
B7
330
B2
100
AcDbEntity
  8
FORMAT
 62
     0
100
AcDbLine
 10
0.0
 20
0.0
 30
0.0
 11
0.0
 21
-2.5
 31
0.0
  0
LINE
  5
B8
330
B2
100
AcDbEntity
  8
FORMAT
 62
     0
100
AcDbLine
 10
0.0
 20
0.0
 30
0.0
 11
2.5
 21
0.0
 31
0.0
  0
LINE
  5
B9
330
B2
100
AcDbEntity
  8
FORMAT
 62
     0
100
AcDbLine
 10
0.0
 20
5.0
 30
0.0
 11
0.0
 21
40.0
 31
0.0
  0
LINE
  5
BA
330
B2
100
AcDbEntity
  8
FORMAT
 62
     0
100
AcDbLine
 10
-5.0
 20
0.0
 30
0.0
 11
-40.0
 21
0.0
 31
0.0
  0
LINE
  5
BB
330
B2
100
AcDbEntity
  8
FORMAT
 62
     0
100
AcDbLine
 10
0.0
 20
-5.0
 30
0.0
 11
0.0
 21
-40.0
 31
0.0
  0
LINE
  5
BC
330
B2
100
AcDbEntity
  8
FORMAT
 62
     0
100
AcDbLine
 10
5.0
 20
0.0
 30
0.0
 11
40.0
 21
0.0
 31
0.0
  0
ENDBLK
  5
B4
330
B2
100
AcDbEntity
  8
0
100
AcDbBlockEnd
  0
ENDSEC
  0
SECTION
  2
ENTITIES
  0
LINE
  5
83
330
1F
100
AcDbEntity
  8
0
  6
Continuous
 62
     7
370
    25
100
AcDbLine
 10
158.8406629962
 20
77.5029005303
 30
0.0
 11
269.5275510204
 21
77.5029005303
 31
0.0
  0
LINE
  5
84
330
1F
100
AcDbEntity
  8
0
  6
Continuous
 62
     7
370
    25
100
AcDbLine
 10
269.5275510204
 20
152.5029005303
 30
0.0
 11
158.821984555
 21
152.5029005303
 31
0.0
  0
CIRCLE
  5
85
330
1F
100
AcDbEntity
  8
0
  6
Continuous
 62
     7
370
    25
100
AcDbCircle
 10
118.5275510204
 20
115.0029005303
 30
0.0
 40
45.00000000000001
  0
CIRCLE
  5
86
330
1F
100
AcDbEntity
  8
0
  6
Continuous
 62
     7
370
    25
100
AcDbCircle
 10
118.5275510204
 20
115.0029005303
 30
0.0
 40
54.99999999999999
  0
LINE
  5
87
330
1F
100
AcDbEntity
  8
0
  6
Continuous
 62
     7
370
    25
100
AcDbLine
 10
269.5275510204
 20
152.5029005303
 30
0.0
 11
269.5275510204
 21
77.5029005303
 31
0.0
  0
INSERT
  5
93
330
1F
100
AcDbEntity
  8
FORMAT
100
AcDbBlockReference
  2
SW_CENTERMARKSYMBOL_0
 10
118.5275510204
 20
115.0029005303
 30
0.0
  0
LINE
  5
94
330
1F
100
AcDbEntity
  8
0
  6
Continuous
 62
     7
370
    25
100
AcDbLine
 10
63.5275510204
 20
5.3617396762
 30
0.0
 11
63.5275510204
 21
-321.6382603238
 31
0.0
  0
LINE
  5
95
330
1F
100
AcDbEntity
  8
0
  6
Continuous
 62
     7
370
    25
100
AcDbLine
 10
173.5275510204
 20
-120.6905187308
 30
0.0
 11
173.5275510204
 21
5.3617396762
 31
0.0
  0
LINE
  5
96
330
1F
100
AcDbEntity
  8
0
  6
Continuous
 62
     7
370
    25
100
AcDbLine
 10
173.5275510204
 20
-321.6382603238
 30
0.0
 11
173.5275510204
 21
-195.6382603238
 31
0.0
  0
LINE
  5
97
330
1F
100
AcDbEntity
  8
0
  6
Continuous
 62
     7
370
    25
100
AcDbLine
 10
173.5275510204
 20
-195.6382603238
 30
0.0
 11
269.5275510204
 21
-195.6382603238
 31
0.0
  0
LINE
  5
98
330
1F
100
AcDbEntity
  8
0
  6
Continuous
 62
     7
370
    25
100
AcDbLine
 10
269.5275510204
 20
-120.6382603238
 30
0.0
 11
173.4920295035
 21
-120.6382603238
 31
0.0
  0
SPLINE
  5
99
330
1F
100
AcDbEntity
  8
0
  6
Continuous
 62
     7
370
    25
100
AcDbSpline
210
0.0
220
0.0
230
1.0
 70
     8
 71
     3
 72
    34
 73
    30
 74
     0
 42
0.000000001
 43
0.00000001
 40
0.0
 40
0.0
 40
0.0
 40
0.0
 40
0.0069673480705269
 40
0.0531082941772819
 40
0.0955329680633544
 40
0.1390236891588889
 40
0.1849381197754647
 40
0.2318387282984387
 40
0.2854262820986273
 40
0.3128880697569215
 40
0.3403478724354203
 40
0.3865842482583441
 40
0.4103127477343053
 40
0.4340365657833232
 40
0.4724052303730918
 40
0.5118641410824427
 40
0.5502471659620215
 40
0.5896782094556177
 40
0.6149995923249817
 40
0.6403260199226397
 40
0.6923713186696436
 40
0.7442122524623921
 40
0.7972200924544744
 40
0.8263097969316985
 40
0.8553953039389187
 40
0.8856189429673709
 40
0.9158366606113149
 40
0.9573663850668926
 40
0.9999999999999999
 40
0.9999999999999999
 40
0.9999999999999999
 40
0.9999999999999999
 10
173.4919815997781
 20
-120.6905187307932
 30
0.0
 10
173.5033226348098
 20
-120.6738556481981
 30
0.0
 10
173.589769159175
 20
-120.5468420580339
 30
0.0
 10
173.2192235448359
 20
-121.0898445139584
 30
0.0
 10
172.3966819175201
 20
-122.3114629479672
 30
0.0
 10
171.1115468245769
 20
-124.2659269096381
 30
0.0
 10
169.4453072538987
 20
-126.9019956239898
 30
0.0
 10
167.3866190203224
 20
-130.3581273813889
 30
0.0
 10
165.462110246265
 20
-133.8997871159973
 30
0.0
 10
163.8536883616285
 20
-137.221794735695
 30
0.0
 10
162.4086620178192
 20
-140.5146131267013
 30
0.0
 10
161.1396636955884
 20
-143.9362698307977
 30
0.0
 10
160.136118541389
 20
-147.4256858958262
 30
0.0
 10
159.3837935883637
 20
-150.7344313039033
 30
0.0
 10
158.806886681013
 20
-154.8000548414451
 30
0.0
 10
158.6914554068199
 20
-159.5536378274051
 30
0.0
 10
159.1438714530129
 20
-164.3046880156818
 30
0.0
 10
159.9810048451205
 20
-168.3315280284796
 30
0.0
 10
160.9527993952861
 20
-171.6818050299796
 30
0.0
 10
162.2276707768017
 20
-175.3403662254488
 30
0.0
 10
164.069025186241
 20
-179.6179141098652
 30
0.0
 10
166.434484504127
 20
-184.2276978631041
 30
0.0
 10
168.3929060200315
 20
-187.6255808351085
 30
0.0
 10
169.8712417204581
 20
-190.0457398528978
 30
0.0
 10
170.9353829352627
 20
-191.7284574152183
 30
0.0
 10
171.866266873941
 20
-193.1611414893709
 30
0.0
 10
172.716663910172
 20
-194.4420871914718
 30
0.0
 10
173.3855260431973
 20
-195.4305182710098
 30
0.0
 10
173.4797972062752
 20
-195.5684101074997
 30
0.0
 10
173.5275510204079
 20
-195.6382603237819
 30
0.0
  0
LINE
  5
9A
330
1F
100
AcDbEntity
  8
0
  6
Continuous
 62
     7
370
    25
100
AcDbLine
 10
173.5275510204
 20
-321.6382603238
 30
0.0
 11
63.5275510204
 21
-321.6382603238
 31
0.0
  0
LINE
  5
9B
330
1F
100
AcDbEntity
  8
0
  6
Continuous
 62
     7
370
    25
100
AcDbLine
 10
173.5275510204
 20
5.3617396762
 30
0.0
 11
63.5275510204
 21
5.3617396762
 31
0.0
  0
LINE
  5
9C
330
1F
100
AcDbEntity
  8
0
  6
Continuous
 62
     7
370
    25
100
AcDbLine
 10
269.5275510204
 20
-120.6382603238
 30
0.0
 11
269.5275510204
 21
-195.6382603238
 31
0.0
  0
LINE
  5
9D
330
1F
100
AcDbEntity
  8
0
  6
Continuous
 62
     7
370
    25
100
AcDbLine
 10
173.5275510204
 20
427.6940297275
 30
0.0
 11
173.5275510204
 21
553.6940297275
 31
0.0
  0
LINE
  5
9E
330
1F
100
AcDbEntity
  8
0
  6
Continuous
 62
     7
370
    25
100
AcDbLine
 10
173.5275510204
 20
226.6940297275
 30
0.0
 11
173.5275510204
 21
352.7462881345
 31
0.0
  0
LINE
  5
9F
330
1F
100
AcDbEntity
  8
0
  6
Continuous
 62
     7
370
    25
100
AcDbLine
 10
63.5275510204
 20
553.6940297275
 30
0.0
 11
63.5275510204
 21
226.6940297275
 31
0.0
  0
LINE
  5
A0
330
1F
100
AcDbEntity
  8
0
  6
Continuous
 62
     7
370
    25
100
AcDbLine
 10
173.5275510204
 20
352.6940297275
 30
0.0
 11
269.5275510204
 21
352.6940297275
 31
0.0
  0
LINE
  5
A1
330
1F
100
AcDbEntity
  8
0
  6
Continuous
 62
     7
370
    25
100
AcDbLine
 10
269.5275510204
 20
427.6940297275
 30
0.0
 11
173.5275510204
 21
427.6940297275
 31
0.0
  0
SPLINE
  5
A2
330
1F
100
AcDbEntity
  8
0
  6
Continuous
 62
     7
370
    25
100
AcDbSpline
210
0.0
220
0.0
230
1.0
 70
     8
 71
     3
 72
    34
 73
    30
 74
     0
 42
0.000000001
 43
0.00000001
 40
0.0
 40
0.0
 40
0.0
 40
0.0
 40
0.0452700538360182
 40
0.0920094249576028
 40
0.1372465909313463
 40
0.1836095360196387
 40
0.2328823459223416
 40
0.2832142601251506
 40
0.3117321769981059
 40
0.3404437837446819
 40
0.3698184447725614
 40
0.3994606723453223
 40
0.4395455652354635
 40
0.4806944819719877
 40
0.5208258696665519
 40
0.5622723845404818
 40
0.6005163868185843
 40
0.6395344690312804
 40
0.6679158889800266
 40
0.6965068103319613
 40
0.7257106550472313
 40
0.7551157708611222
 40
0.7837045243942549
 40
0.8124961343861059
 40
0.8419799446593546
 40
0.871732706471484
 40
0.9163862506672353
 40
0.9622801529863257
 40
1.0
 40
1.0
 40
1.0
 40
1.0
 10
173.527551020408
 20
427.6940297275364
 30
0.0
 10
173.4733695449711
 20
427.6147903977044
 30
0.0
 10
173.3632480413307
 20
427.4537398896075
 30
0.0
 10
172.4969632240601
 20
426.1723752269122
 30
0.0
 10
171.1907942660489
 20
424.1893156370846
 30
0.0
 10
169.4736261923883
 20
421.4779186134057
 30
0.0
 10
167.4209415125065
 20
418.0341978630133
 30
0.0
 10
165.496839315073
 20
414.4943498573479
 30
0.0
 10
163.9003242307387
 20
411.2142751302456
 30
0.0
 10
162.6609866133977
 20
408.3973942274461
 30
0.0
 10
161.4948769711883
 20
405.3700620809125
 30
0.0
 10
160.3352888983155
 20
401.7613836562702
 30
0.0
 10
159.3261679541227
 20
397.4923259779904
 30
0.0
 10
158.7307376386563
 20
392.6024291620233
 30
0.0
 10
158.7430847334711
 20
387.5783914069795
 30
0.0
 10
159.3553666842934
 20
382.7567899872067
 30
0.0
 10
160.4441943957994
 20
378.1945155858515
 30
0.0
 10
161.7181674072648
 20
374.3753088857604
 30
0.0
 10
163.0288832914016
 20
371.1212725077772
 30
0.0
 10
164.2795329269463
 20
368.3687603818389
 30
0.0
 10
165.5809886722833
 20
365.7638779215048
 30
0.0
 10
166.8819444443649
 20
363.3496442302359
 30
0.0
 10
168.1424390527256
 20
361.1451653931975
 30
0.0
 10
169.3395724795201
 20
359.1479250001597
 30
0.0
 10
170.4548624938613
 20
357.3571355414471
 30
0.0
 10
171.6197867972743
 20
355.5435732066678
 30
0.0
 10
172.6805745933165
 20
353.9421676024027
 30
0.0
 10
173.4172495914035
 20
352.8554580607644
 30
0.0
 10
173.4687491233017
 20
352.7802265740185
 30
0.0
 10
173.4919815997781
 20
352.7462881345476
 30
0.0
  0
LINE
  5
A3
330
1F
100
AcDbEntity
  8
0
  6
Continuous
 62
     7
370
    25
100
AcDbLine
 10
63.5275510204
 20
553.6940297275
 30
0.0
 11
173.5275510204
 21
553.6940297275
 31
0.0
  0
LINE
  5
A4
330
1F
100
AcDbEntity
  8
0
  6
Continuous
 62
     7
370
    25
100
AcDbLine
 10
63.5275510204
 20
226.6940297275
 30
0.0
 11
173.5275510204
 21
226.6940297275
 31
0.0
  0
LINE
  5
A5
330
1F
100
AcDbEntity
  8
0
  6
Continuous
 62
     7
370
    25
100
AcDbLine
 10
269.5275510204
 20
427.6940297275
 30
0.0
 11
269.5275510204
 21
352.6940297275
 31
0.0
  0
LINE
  5
A6
330
1F
100
AcDbEntity
  8
0
  6
Continuous
 62
     7
370
    25
100
AcDbLine
 10
321.5137652248
 20
60.0029005303
 30
0.0
 11
648.5137652248
 21
60.0029005303
 31
0.0
  0
LINE
  5
A7
330
1F
100
AcDbEntity
  8
0
  6
Continuous
 62
     7
370
    25
100
AcDbLine
 10
648.5137652248
 20
170.0029005303
 30
0.0
 11
321.5137652248
 21
170.0029005303
 31
0.0
  0
LINE
  5
A8
330
1F
100
AcDbEntity
  8
0
  6
Continuous
 62
     7
370
    25
100
AcDbLine
 10
648.5137652248
 20
170.0029005303
 30
0.0
 11
648.5137652248
 21
60.0029005303
 31
0.0
  0
LINE
  5
A9
330
1F
100
AcDbEntity
  8
0
  6
Continuous
 62
     7
370
    25
100
AcDbLine
 10
321.5137652248
 20
170.0029005303
 30
0.0
 11
321.5137652248
 21
60.0029005303
 31
0.0
  0
LINE
  5
AA
330
1F
100
AcDbEntity
  8
0
  6
Continuous
 62
     7
370
    25
100
AcDbLine
 10
6.7096946819
 20
170.0029005303
 30
0.0
 11
-320.2903053181
 21
170.0029005303
 31
0.0
  0
LINE
  5
AB
330
1F
100
AcDbEntity
  8
0
  6
Continuous
 62
     7
370
    25
100
AcDbLine
 10
-320.2903053181
 20
60.0029005303
 30
0.0
 11
6.7096946819
 21
60.0029005303
 31
0.0
  0
CIRCLE
  5
AC
330
1F
100
AcDbEntity
  8
0
  6
Continuous
 62
     7
370
    25
100
AcDbCircle
 10
-156.7903053181
 20
115.0029005303
 30
0.0
 40
30.70000000000002
  0
CIRCLE
  5
AD
330
1F
100
AcDbEntity
  8
0
  6
Continuous
 62
     7
370
    25
100
AcDbCircle
 10
-156.7903053181
 20
115.0029005303
 30
0.0
 40
37.50000000000001
  0
LINE
  5
AE
330
1F
100
AcDbEntity
  8
0
  6
Continuous
 62
     7
370
    25
100
AcDbLine
 10
-320.2903053181
 20
115.0029005303
 30
0.0
 11
-320.2903053181
 21
170.0029005303
 31
0.0
  0
LINE
  5
AF
330
1F
100
AcDbEntity
  8
0
  6
Continuous
 62
     7
370
    25
100
AcDbLine
 10
-320.2903053181
 20
60.0029005303
 30
0.0
 11
-320.2903053181
 21
115.0029005303
 31
0.0
  0
LINE
  5
B0
330
1F
100
AcDbEntity
  8
0
  6
Continuous
 62
     7
370
    25
100
AcDbLine
 10
6.7096946819
 20
115.0029005303
 30
0.0
 11
6.7096946819
 21
170.0029005303
 31
0.0
  0
LINE
  5
B1
330
1F
100
AcDbEntity
  8
0
  6
Continuous
 62
     7
370
    25
100
AcDbLine
 10
6.7096946819
 20
60.0029005303
 30
0.0
 11
6.7096946819
 21
115.0029005303
 31
0.0
  0
INSERT
  5
BD
330
1F
100
AcDbEntity
  8
FORMAT
100
AcDbBlockReference
  2
SW_CENTERMARKSYMBOL_1
 10
-156.7903053181
 20
115.0029005303
 30
0.0
  0
LINE
  5
BE
330
1F
100
AcDbEntity
  8
0
  6
Continuous
 62
     7
370
    25
100
AcDbLine
 10
608.0810399999
 20
-171.8149375574
 30
0.0
 11
557.4788339705
 21
-142.6029058123
 31
0.0
  0
LINE
  5
BF
330
1F
100
AcDbEntity
  8
0
  6
Continuous
 62
     7
370
    25
100
AcDbLine
 10
482.4727384228
 20
-99.3028085211
 30
0.0
 11
376.8571225519
 21
-38.3322112744
 31
0.0
  0
LINE
  5
C0
330
1F
100
AcDbEntity
  8
0
  6
Continuous
 62
     7
370
    25
100
AcDbLine
 10
321.8615922569
 20
-133.5975861363
 30
0.0
 11
553.0855097049
 21
-267.0803124193
 31
0.0
  0
LINE
  5
C1
330
1F
100
AcDbEntity
  8
0
  6
Continuous
 62
     7
370
    25
100
AcDbLine
 10
517.7904817907
 20
-165.5145038386
 30
0.0
 11
590.4929163245
 21
-123.5442817435
 31
0.0
  0
LINE
  5
C2
330
1F
100
AcDbEntity
  8
0
  6
Continuous
 62
     7
370
    25
100
AcDbLine
 10
552.9959638506
 20
-58.590617065
 30
0.0
 11
480.2874704515
 21
-100.5643368685
 31
0.0
  0
SPLINE
  5
C3
330
1F
100
AcDbEntity
  8
0
  6
Continuous
 62
     7
370
    25
100
AcDbSpline
210
0.0
220
0.0
230
1.0
 70
     8
 71
     3
 72
    27
 73
    23
 74
     0
 42
0.000000001
 43
0.00000001
 40
0.0
 40
0.0
 40
0.0
 40
0.0
 40
0.0602689734743738
 40
0.1224940799109484
 40
0.1827192690835354
 40
0.2444432316359492
 40
0.3100411583313918
 40
0.377049092825829
 40
0.4150155945177942
 40
0.4532399596065599
 40
0.4923470627860889
 40
0.5318103829264922
 40
0.5851762427301952
 40
0.639958659828176
 40
0.693386419141533
 40
0.7485650348902665
 40
0.7994800783581183
 40
0.8514256707008189
 40
0.889210451170753
 40
0.9272741452588893
 40
0.966153837093803
 40
1.0
 40
1.0
 40
1.0
 40
1.0
 10
477.3456847991509
 20
-114.9473866750612
 30
0.0
 10
477.363403377916
 20
-116.5088410034352
 30
0.0
 10
477.3994156223269
 20
-119.6824293400355
 30
0.0
 10
477.6929213957562
 20
-124.9822429133941
 30
0.0
 10
478.1715553516514
 20
-130.5109127367291
 30
0.0
 10
478.8745813841986
 20
-136.2238957104485
 30
0.0
 10
479.8581924227831
 20
-142.0722893152019
 30
0.0
 10
481.0006972396297
 20
-147.0331388721131
 30
0.0
 10
482.1911536814376
 20
-151.0085047397129
 30
0.0
 10
483.3066452301246
 20
-154.0770425117028
 30
0.0
 10
484.6227283076317
 20
-157.0193806305234
 30
0.0
 10
486.3544966041256
 20
-160.1104383033325
 30
0.0
 10
488.6596204799972
 20
-163.1965815761872
 30
0.0
 10
491.6962648415792
 20
-165.9592144935279
 30
0.0
 10
495.2575341902034
 20
-167.9943305354024
 30
0.0
 10
499.0998421162723
 20
-169.1735325847098
 30
0.0
 10
503.0958723049683
 20
-169.5840840759844
 30
0.0
 10
506.6969628053758
 20
-169.3565163217581
 30
0.0
 10
509.9256579474188
 20
-168.7361825338864
 30
0.0
 10
512.7530699891645
 20
-167.8835370962475
 30
0.0
 10
515.4010252707371
 20
-166.8212656717071
 30
0.0
 10
517.0258508826253
 20
-165.9190847519367
 30
0.0
 10
517.7820346710441
 20
-165.4992153328681
 30
0.0
  0
SPLINE
  5
C4
330
1F
100
AcDbEntity
  8
0
  6
Continuous
 62
     7
370
    25
100
AcDbSpline
210
0.0
220
0.0
230
1.0
 70
     8
 71
     3
 72
    14
 73
    10
 74
     0
 42
0.000000001
 43
0.00000001
 40
0.0
 40
0.0
 40
0.0
 40
0.0
 40
0.1853586631598717
 40
0.3017304836074484
 40
0.4190698158800741
 40
0.5398051500920859
 40
0.6618861626797314
 40
0.828725722522774
 40
1.0
 40
1.0
 40
1.0
 40
1.0
 10
480.316714268153
 20
-100.6111750665651
 30
0.0
 10
479.9409144240785
 20
-100.8790211601147
 30
0.0
 10
479.3291800343328
 20
-101.3150263079798
 30
0.0
 10
478.7179283697602
 20
-102.5608401752289
 30
0.0
 10
478.2780481402219
 20
-103.8834229422867
 30
0.0
 10
477.923294896957
 20
-105.5568860218898
 30
0.0
 10
477.6184057829603
 20
-107.8395101966587
 30
0.0
 10
477.3921696331073
 20
-110.8697934761146
 30
0.0
 10
477.361314642326
 20
-113.5763558074225
 30
0.0
 10
477.3456847991509
 20
-114.9473866750612
 30
0.0
  0
LWPOLYLINE
  5
C5
330
1F
100
AcDbEntity
  8
0
  6
Continuous
 62
     7
370
    25
100
AcDbPolyline
 90
       89
 70
   128
 43
0.0
 10
388.2502303696
 20
-63.5136756302
 10
388.1511408826
 20
-60.3670542722
 10
387.8543773589
 20
-57.3508736619
 10
387.3614520373
 20
-54.4805035642
 10
386.6748767523
 20
-51.7705707273
 10
385.7981501342
 20
-49.2348843478
 10
384.7357397809
 20
-46.8863657021
 10
383.4930594919
 20
-44.7369823031
 10
382.0764416813
 20
-42.7976869157
 10
380.4931051086
 20
-41.0783617448
 10
378.7511180941
 20
-39.5877680774
 10
376.8593574044
 20
-38.333501637
 10
374.8274630182
 20
-37.321953878
 10
372.6657890036
 20
-36.5582794159
 10
370.3853507559
 20
-36.0463697607
 10
367.9977688656
 20
-35.7888334866
 10
365.5152099029
 20
-35.7869829395
 10
362.9503244191
 20
-36.0408275493
 10
360.3161824827
 20
-36.5490737821
 10
357.6262070772
 20
-37.3091317316
 10
354.8941057007
 20
-38.3171283167
 10
352.1338005156
 20
-39.5679270179
 10
349.3593574044
 20
-41.0551540516
 10
346.5849142931
 20
-42.7712308499
 10
343.824609108
 20
-44.7074126787
 10
341.0925077316
 20
-46.8538331992
 10
338.4025323261
 20
-49.1995547445
 10
335.7683903897
 20
-51.7326240552
 10
333.2035049059
 20
-54.4401331908
 10
330.7209459431
 20
-57.3082853053
 10
328.3333640529
 20
-60.3224649531
 10
326.0529258052
 20
-63.4673125655
 10
323.8912517906
 20
-66.7268027199
 10
321.8593574044
 20
-70.0843258017
 10
319.9675967146
 20
-73.5227726429
 10
318.2256097001
 20
-77.0246217065
 10
316.6422731275
 20
-80.5720283724
 10
315.2256553168
 20
-84.1469158693
 10
313.9829750279
 20
-87.7310673901
 10
312.9205646746
 20
-91.3062189201
 10
312.0438380565
 20
-94.8541523066
 10
311.3572627715
 20
-98.3567880944
 10
310.8643374499
 20
-101.7962776543
 10
310.5675739261
 20
-105.1550941359
 10
310.4684844391
 20
-108.4161217805
 10
310.5675739261
 20
-111.5627431385
 10
310.8643374499
 20
-114.5789237489
 10
311.3572627715
 20
-117.4492938465
 10
312.0438380565
 20
-120.1592266834
 10
312.9205646746
 20
-122.6949130629
 10
313.9829750279
 20
-125.0434317086
 10
315.2256553168
 20
-127.1928151076
 10
316.6422731275
 20
-129.132110495
 10
318.2256097001
 20
-130.8514356659
 10
319.9675967146
 20
-132.3420293333
 10
321.8593574044
 20
-133.5962957737
 10
323.8912517906
 20
-134.6078435327
 10
326.0529258052
 20
-135.3715179948
 10
328.3333640529
 20
-135.8834276501
 10
330.7209459431
 20
-136.1409639241
 10
333.2035049059
 20
-136.1428144712
 10
335.7683903897
 20
-135.8889698614
 10
338.4025323261
 20
-135.3807236286
 10
341.0925077316
 20
-134.6206656791
 10
343.824609108
 20
-133.612669094
 10
346.5849142931
 20
-132.3618703928
 10
349.3593574044
 20
-130.8746433591
 10
352.1338005156
 20
-129.1585665608
 10
354.8941057007
 20
-127.222384732
 10
357.6262070772
 20
-125.0759642115
 10
360.3161824827
 20
-122.7302426662
 10
362.9503244191
 20
-120.1971733555
 10
365.5152099029
 20
-117.4896642199
 10
367.9977688656
 20
-114.6215121054
 10
370.3853507559
 20
-111.6073324576
 10
372.6657890036
 20
-108.4624848453
 10
374.8274630182
 20
-105.2029946908
 10
376.8593574044
 20
-101.845471609
 10
378.7511180941
 20
-98.4070247678
 10
380.4931051086
 20
-94.9051757042
 10
382.0764416813
 20
-91.3577690383
 10
383.4930594919
 20
-87.7828815414
 10
384.7357397809
 20
-84.1987300206
 10
385.7981501342
 20
-80.6235784906
 10
386.6748767523
 20
-77.0756451041
 10
387.3614520373
 20
-73.5730093163
 10
387.8543773589
 20
-70.1335197564
 10
388.1511408826
 20
-66.7747032748
 10
388.2502303696
 20
-63.5136756302
  0
LWPOLYLINE
  5
C6
330
1F
100
AcDbEntity
  8
0
  6
Continuous
 62
     7
370
    25
100
AcDbPolyline
 90
       13
 70
   128
 43
0.0
 10
619.4741478176
 20
-196.9964019132
 10
619.3750583306
 20
-193.8497805552
 10
619.0782948069
 20
-190.8335999449
 10
618.5853694853
 20
-187.9632298472
 10
617.8987942003
 20
-185.2532970103
 10
617.0220675822
 20
-182.7176106308
 10
615.9596572289
 20
-180.3690919852
 10
614.7169769399
 20
-178.2197085861
 10
613.3003591293
 20
-176.2804131987
 10
611.7170225566
 20
-174.5610880278
 10
609.9750355421
 20
-173.0704943604
 10
608.0832748524
 20
-171.81622792
 10
608.0810399999
 20
-171.8149375574
  0
LWPOLYLINE
  5
C7
330
1F
100
AcDbEntity
  8
0
  6
Continuous
 62
     7
370
    25
100
AcDbPolyline
 90
       34
 70
   128
 43
0.0
 10
553.0855097049
 20
-267.0803124193
 10
555.1151692386
 20
-268.0905698157
 10
557.2768432532
 20
-268.8542442778
 10
559.5572815009
 20
-269.3661539331
 10
561.9448633911
 20
-269.6236902071
 10
564.4274223539
 20
-269.6255407543
 10
566.9923078377
 20
-269.3716961444
 10
569.6264497741
 20
-268.8634499116
 10
572.3164251796
 20
-268.1033919621
 10
575.048526556
 20
-267.095395377
 10
577.8088317411
 20
-265.8445966758
 10
580.5832748524
 20
-264.3573696421
 10
583.3577179636
 20
-262.6412928438
 10
586.1180231487
 20
-260.705111015
 10
588.8501245252
 20
-258.5586904945
 10
591.5400999307
 20
-256.2129689493
 10
594.1742418671
 20
-253.6798996385
 10
596.7391273509
 20
-250.9723905029
 10
599.2216863136
 20
-248.1042383884
 10
601.6092682039
 20
-245.0900587406
 10
603.8897064516
 20
-241.9452111283
 10
606.0513804662
 20
-238.6857209738
 10
608.0832748524
 20
-235.328197892
 10
609.9750355421
 20
-231.8897510508
 10
611.7170225566
 20
-228.3879019872
 10
613.3003591293
 20
-224.8404953213
 10
614.7169769399
 20
-221.2656078244
 10
615.9596572289
 20
-217.6814563036
 10
617.0220675822
 20
-214.1063047736
 10
617.8987942003
 20
-210.5583713871
 10
618.5853694853
 20
-207.0557355994
 10
619.0782948069
 20
-203.6162460394
 10
619.3750583306
 20
-200.2574295578
 10
619.4741478176
 20
-196.9964019132
  0
LWPOLYLINE
  5
C8
330
1F
100
AcDbEntity
  8
0
  6
Continuous
 62
     7
370
    25
100
AcDbPolyline
 90
       81
 70
   128
 43
0.0
 10
381.1791625578
 20
-67.5957161893
 10
381.0810727178
 20
-64.769414831
 10
380.7874079544
 20
-62.0737906789
 10
380.2999788085
 20
-59.5254631525
 10
379.6217904428
 20
-57.1401435382
 10
378.7570241141
 20
-54.9325381247
 10
377.7110113945
 20
-52.9162575335
 10
376.4902013001
 20
-51.1037328049
 10
375.1021205312
 20
-49.5061387567
 10
373.5553270673
 20
-48.1333250872
 10
371.8593574044
 20
-46.9937556494
 10
370.0246677595
 20
-46.0944562678
 10
368.0625696044
 20
-45.440971422
 10
365.9851599266
 20
-45.0373300636
 10
363.8052466476
 20
-44.8860207756
 10
361.5362696577
 20
-44.9879764301
 10
359.1922179545
 20
-45.3425684367
 10
356.7875433962
 20
-45.9476106177
 10
354.3370716012
 20
-46.7993726869
 10
351.855910543
 20
-47.8926032478
 10
349.3593574044
 20
-49.2205621705
 10
346.8628042658
 20
-50.7750621467
 10
344.3816432075
 20
-52.5465191671
 10
341.9311714125
 20
-54.5240116101
 10
339.5264968543
 20
-56.6953475772
 10
337.1824451511
 20
-59.0471400601
 10
334.9134681612
 20
-61.5648894761
 10
332.7335548822
 20
-64.2330730628
 10
330.6561452044
 20
-67.0352405812
 10
328.6940470493
 20
-69.9541157367
 10
326.8593574044
 20
-72.9717026933
 10
325.1633877415
 20
-76.069397024
 10
323.6165942776
 20
-79.2281004131
 10
322.2285135087
 20
-82.428338404
 10
321.0077034143
 20
-85.6503804651
 10
319.9616906947
 20
-88.8743616357
 10
319.096924366
 20
-92.0804049999
 10
318.4187360003
 20
-95.2487442342
 10
317.9313068544
 20
-98.3598454736
 10
317.637642091
 20
-101.3945277444
 10
317.539552251
 20
-104.3340812214
 10
317.637642091
 20
-107.1603825797
 10
317.9313068544
 20
-109.8560067318
 10
318.4187360003
 20
-112.4043342582
 10
319.096924366
 20
-114.7896538725
 10
319.9616906947
 20
-116.997259286
 10
321.0077034143
 20
-119.0135398772
 10
322.2285135087
 20
-120.8260646058
 10
323.6165942776
 20
-122.423658654
 10
325.1633877415
 20
-123.7964723235
 10
326.8593574044
 20
-124.9360417613
 10
328.6940470493
 20
-125.8353411429
 10
330.6561452044
 20
-126.4888259887
 10
332.7335548822
 20
-126.8924673471
 10
334.9134681612
 20
-127.0437766351
 10
337.1824451511
 20
-126.9418209806
 10
339.5264968543
 20
-126.587228974
 10
341.9311714125
 20
-125.982186793
 10
344.3816432075
 20
-125.1304247239
 10
346.8628042658
 20
-124.0371941629
 10
349.3593574044
 20
-122.7092352402
 10
351.855910543
 20
-121.154735264
 10
354.3370716012
 20
-119.3832782436
 10
356.7875433962
 20
-117.4057858006
 10
359.1922179545
 20
-115.2344498336
 10
361.5362696577
 20
-112.8826573506
 10
363.8052466476
 20
-110.3649079346
 10
365.9851599266
 20
-107.6967243479
 10
368.0625696044
 20
-104.8945568295
 10
370.0246677595
 20
-101.975681674
 10
371.8593574044
 20
-98.9580947174
 10
373.5553270673
 20
-95.8604003867
 10
375.1021205312
 20
-92.7016969976
 10
376.4902013001
 20
-89.5014590068
 10
377.7110113945
 20
-86.2794169456
 10
378.7570241141
 20
-83.055435775
 10
379.6217904428
 20
-79.8493924108
 10
380.2999788085
 20
-76.6810531765
 10
380.7874079544
 20
-73.5699519371
 10
381.0810727178
 20
-70.5352696663
 10
381.1791625578
 20
-67.5957161893
  0
LWPOLYLINE
  5
C9
330
1F
100
AcDbEntity
  8
0
  6
Continuous
 62
     7
370
    25
100
AcDbPolyline
 90
       67
 70
   128
 43
0.0
 10
593.45261827
 20
-103.5993139207
 10
593.3543219584
 20
-101.1597225075
 10
593.0603232102
 20
-98.6287339063
 10
592.5732845236
 20
-96.0292691417
 10
591.8976165963
 20
-93.3848693692
 10
591.0394383818
 20
-90.7194826826
 10
590.0065216749
 20
-88.0572472366
 10
588.8082207291
 20
-85.4222726475
 10
587.4553875434
 20
-82.8384216533
 10
585.9602735847
 20
-80.3290940087
 10
584.3364188365
 20
-77.9170145735
 10
582.5985291788
 20
-75.6240275125
 10
580.7623432095
 20
-73.4708984716
 10
578.844489713
 20
-71.4771265208
 10
576.8623370677
 20
-69.6607675677
 10
574.8338359548
 20
-68.0382708403
 10
572.7773567945
 20
-66.62432992
 10
570.7115233806
 20
-65.431749675
 10
568.6550442203
 20
-64.4713302964
 10
566.6265431074
 20
-63.751769491
 10
564.6443904621
 20
-63.2795837129
 10
562.7265369657
 20
-63.0590491495
 10
560.8903509963
 20
-63.092162996
 10
559.1524613386
 20
-63.3786253683
 10
557.5286065904
 20
-63.9158420188
 10
556.0334926317
 20
-64.6989478303
 10
554.680659446
 20
-65.7208508753
 10
553.4823585003
 20
-66.9722966417
 10
552.4494417933
 20
-68.4419518426
 10
551.5912635788
 20
-70.1165070532
 10
550.9155956515
 20
-71.980797242
 10
550.4285569649
 20
-74.0179391084
 10
550.1345582167
 20
-76.2094839802
 10
550.0362619051
 20
-78.5355848878
 10
550.1345582167
 20
-80.975176301
 10
550.4285569649
 20
-83.5061649022
 10
550.9155956515
 20
-86.1056296668
 10
551.5912635788
 20
-88.7500294393
 10
552.4494417933
 20
-91.4154161259
 10
553.4823585003
 20
-94.0776515719
 10
554.680659446
 20
-96.712626161
 10
556.0334926317
 20
-99.2964771552
 10
557.5286065904
 20
-101.8058047998
 10
559.1524613386
 20
-104.217884235
 10
560.8903509963
 20
-106.510871296
 10
562.7265369657
 20
-108.6640003369
 10
564.6443904621
 20
-110.6577722877
 10
566.6265431074
 20
-112.4741312408
 10
568.6550442203
 20
-114.0966279682
 10
570.7115233806
 20
-115.5105688885
 10
572.7773567945
 20
-116.7031491335
 10
574.8338359548
 20
-117.6635685121
 10
576.8623370677
 20
-118.3831293175
 10
578.844489713
 20
-118.8553150956
 10
580.7623432095
 20
-119.075849659
 10
582.5985291788
 20
-119.0427358125
 10
584.3364188365
 20
-118.7562734402
 10
585.9602735847
 20
-118.2190567897
 10
587.4553875434
 20
-117.4359509782
 10
588.8082207291
 20
-116.4140479332
 10
590.0065216749
 20
-115.1626021668
 10
591.0394383818
 20
-113.6929469659
 10
591.8976165963
 20
-112.0183917553
 10
592.5732845236
 20
-110.1541015665
 10
593.0603232102
 20
-108.1169597001
 10
593.3543219584
 20
-105.9254148283
 10
593.45261827
 20
-103.5993139207
  0
LWPOLYLINE
  5
CA
330
1F
100
AcDbEntity
  8
0
  6
Continuous
 62
     7
370
    25
100
AcDbPolyline
 90
       74
 70
   128
 43
0.0
 10
598.2609443821
 20
-106.3751015009
 10
598.1627849218
 20
-103.6861690049
 10
597.8690332794
 20
-100.9038119239
 10
597.3818642891
 20
-98.0486298562
 10
596.7048847799
 20
-95.1417615709
 10
595.843106871
 20
-92.2047285038
 10
594.8029108646
 20
-89.2592754202
 10
593.5919980081
 20
-86.3272094241
 10
592.2193334765
 20
-83.4302385064
 10
590.6950799977
 20
-80.5898108261
 10
589.0305226114
 20
-77.8269559161
 10
587.2379851178
 20
-75.1621289874
 10
585.3307388376
 20
-72.6150594863
 10
583.3229043549
 20
-70.2046050242
 10
581.2293469737
 20
-67.9486117627
 10
579.0655666604
 20
-65.8637822865
 10
576.8475832874
 20
-63.9655519436
 10
574.5918180275
 20
-62.2679745674
 10
572.3149717776
 20
-60.7836184269
 10
570.0339015107
 20
-59.5234731755
 10
567.7654954729
 20
-58.4968684879
 10
565.526548149
 20
-57.7114049859
 10
563.3336359215
 20
-57.1728979665
 10
561.2029943454
 20
-56.8853343473
 10
559.1503979454
 20
-56.8508431488
 10
557.1910434272
 20
-57.0696797316
 10
555.3394371661
 20
-57.5402239063
 10
553.609287807
 20
-58.2589919284
 10
552.0134047704
 20
-59.2206622911
 10
550.5636034161
 20
-60.4181151233
 10
549.2706175659
 20
-61.8424849032
 10
548.1440200348
 20
-63.4832260954
 10
547.1921517567
 20
-65.3281912261
 10
546.4220600313
 20
-67.363720819
 10
545.8394463484
 20
-69.5747445252
 10
545.4486241757
 20
-71.9448926986
 10
545.2524870239
 20
-74.4566175915
 10
545.2524870239
 20
-77.0913232715
 10
545.4486241757
 20
-79.8295032995
 10
545.8394463484
 20
-82.6508851488
 10
546.4220600313
 20
-85.534580295
 10
547.1921517567
 20
-88.4592388684
 10
548.1440200348
 20
-91.40320772
 10
549.2706175659
 20
-94.3446907346
 10
550.5636034161
 20
-97.2619102009
 10
552.0134047704
 20
-100.1332680468
 10
553.609287807
 20
-102.9375057433
 10
555.3394371661
 20
-105.6538616956
 10
557.1910434272
 20
-108.2622249546
 10
559.1503979454
 20
-110.7432841114
 10
561.2029943454
 20
-113.078670272
 10
563.3336359215
 20
-115.2510930543
 10
565.526548149
 20
-117.2444686002
 10
567.7654954729
 20
-119.0440386545
 10
570.0339015107
 20
-120.6364798301
 10
572.3149717776
 20
-122.0100022497
 10
574.5918180275
 20
-123.1544368339
 10
576.8475832874
 20
-124.0613105894
 10
579.0655666604
 20
-124.7239093403
 10
581.2293469737
 20
-125.1373274371
 10
583.3229043549
 20
-125.298504077
 10
585.3307388376
 20
-125.2062459645
 10
587.2379851178
 20
-124.8612361463
 10
589.0305226114
 20
-124.2660289546
 10
590.6950799977
 20
-123.425031095
 10
592.2193334765
 20
-122.3444690214
 10
593.5919980081
 20
-121.0323428375
 10
594.8029108646
 20
-119.4983670665
 10
595.843106871
 20
-117.7538987281
 10
596.7048847799
 20
-115.8118532557
 10
597.3818642891
 20
-113.6866088745
 10
597.8690332794
 20
-111.3939001504
 10
598.1627849218
 20
-108.9507014965
 10
598.2609443821
 20
-106.3751015009
  0
ENDSEC
  0
SECTION
  2
OBJECTS
  0
DICTIONARY
  5
C
330
0
100
AcDbDictionary
281
     1
  3
ACAD_GROUP
350
D
  3
ACAD_LAYOUT
350
1A
  3
ACAD_MLINESTYLE
350
17
  3
ACAD_PLOTSETTINGS
350
19
  3
ACAD_PLOTSTYLENAME
350
E
  3
ACAD_SCALELIST
350
47
  0
DICTIONARY
  5
D
102
{ACAD_REACTORS
330
C
102
}
330
C
100
AcDbDictionary
281
     1
  0
DICTIONARY
  5
1A
102
{ACAD_REACTORS
330
C
102
}
330
C
100
AcDbDictionary
281
     1
  3
Layout1
350
1E
  3
Layout2
350
26
  3
Model
350
22
  0
DICTIONARY
  5
17
102
{ACAD_REACTORS
330
C
102
}
330
C
100
AcDbDictionary
281
     1
  3
Standard
350
18
  0
DICTIONARY
  5
19
102
{ACAD_REACTORS
330
C
102
}
330
C
100
AcDbDictionary
281
     1
  0
ACDBDICTIONARYWDFLT
  5
E
102
{ACAD_REACTORS
330
C
102
}
330
C
100
AcDbDictionary
281
     1
  3
Normal
350
F
100
AcDbDictionaryWithDefault
340
F
  0
DICTIONARY
  5
47
102
{ACAD_REACTORS
330
C
102
}
330
C
100
AcDbDictionary
281
     1
  3
A0
350
48
  3
A1
350
49
  3
A2
350
4A
  3
A3
350
4B
  3
A4
350
4C
  3
A5
350
4D
  3
A6
350
4E
  3
A7
350
4F
  3
A8
350
50
  3
A9
350
51
  3
B0
350
52
  3
B1
350
53
  3
B2
350
54
  3
B3
350
55
  3
B4
350
56
  3
B5
350
57
  3
B6
350
58
  3
B7
350
59
  3
B8
350
5A
  3
B9
350
5B
  3
C0
350
5C
  3
C1
350
5D
  3
C2
350
5E
  3
C3
350
5F
  3
C4
350
60
  3
C5
350
61
  3
C6
350
62
  3
C7
350
63
  3
C8
350
64
  3
C9
350
65
  3
D0
350
66
  3
D1
350
67
  3
D2
350
68
  0
LAYOUT
  5
1E
102
{ACAD_REACTORS
330
1A
102
}
330
1A
100
AcDbPlotSettings
  1

  2
none_device
  4

  6

 40
0.0
 41
0.0
 42
0.0
 43
0.0
 44
0.0
 45
0.0
 46
0.0
 47
0.0
 48
0.0
 49
0.0
140
0.0
141
0.0
142
1.0
143
1.0
 70
   688
 72
     1
 73
     0
 74
     5
  7

 75
    16
147
1.0
148
0.0
149
0.0
100
AcDbLayout
  1
Layout1
 70
     1
 71
     1
 10
0.0
 20
0.0
 11
420.0
 21
297.0
 12
0.0
 22
0.0
 32
0.0
 14
1.0000000000E+20
 24
1.0000000000E+20
 34
1.0000000000E+20
 15
-1.0000000000E+20
 25
-1.0000000000E+20
 35
-1.0000000000E+20
146
0.0
 13
0.0
 23
0.0
 33
0.0
 16
1.0
 26
0.0
 36
0.0
 17
0.0
 27
1.0
 37
0.0
 76
     0
330
1B
  0
LAYOUT
  5
26
102
{ACAD_REACTORS
330
1A
102
}
330
1A
100
AcDbPlotSettings
  1

  2
none_device
  4

  6

 40
0.0
 41
0.0
 42
0.0
 43
0.0
 44
0.0
 45
0.0
 46
0.0
 47
0.0
 48
0.0
 49
0.0
140
0.0
141
0.0
142
1.0
143
1.0
 70
   688
 72
     1
 73
     0
 74
     5
  7

 75
    16
147
1.0
148
0.0
149
0.0
100
AcDbLayout
  1
Layout2
 70
     1
 71
     2
 10
0.0
 20
0.0
 11
0.0
 21
0.0
 12
0.0
 22
0.0
 32
0.0
 14
0.0
 24
0.0
 34
0.0
 15
0.0
 25
0.0
 35
0.0
146
0.0
 13
0.0
 23
0.0
 33
0.0
 16
1.0
 26
0.0
 36
0.0
 17
0.0
 27
1.0
 37
0.0
 76
     0
330
23
  0
LAYOUT
  5
22
102
{ACAD_REACTORS
330
1A
102
}
330
1A
100
AcDbPlotSettings
  1

  2
none_device
  4
Letter_(8.50_x_11.00_Inches)
  6

 40
6.35
 41
6.35
 42
6.35000508
 43
6.35000508
 44
215.9
 45
279.4
 46
0.0
 47
0.0
 48
0.0
 49
0.0
140
0.0
141
0.0
142
1.0
143
1.0
 70
  1712
 72
     1
 73
     0
 74
     0
  7

 75
     0
147
1.0
148
0.0
149
0.0
100
AcDbLayout
  1
Model
 70
     1
 71
     0
 10
0.0
 20
0.0
 11
279.4
 21
215.9
 12
0.0
 22
0.0
 32
0.0
 14
0.0
 24
0.0
 34
0.0
 15
279.4
 25
215.9
 35
0.0
146
0.0
 13
0.0
 23
0.0
 33
0.0
 16
1.0
 26
0.0
 36
0.0
 17
0.0
 27
1.0
 37
0.0
 76
     0
330
1F
331
29
  0
MLINESTYLE
  5
18
102
{ACAD_REACTORS
330
17
102
}
330
17
100
AcDbMlineStyle
  2
Standard
 70
     0
  3

 62
   256
 51
90.0
 52
90.0
 71
     2
 49
0.5
 62
   256
  6
BYLAYER
 49
-0.5
 62
   256
  6
BYLAYER
  0
ACDBPLACEHOLDER
  5
F
102
{ACAD_REACTORS
330
E
102
}
330
E
  0
SCALE
  5
48
102
{ACAD_REACTORS
330
47
102
}
330
47
100
AcDbScale
 70
     0
300
1:1
140
1.0
141
1.0
290
     1
  0
SCALE
  5
49
102
{ACAD_REACTORS
330
47
102
}
330
47
100
AcDbScale
 70
     0
300
1:2
140
1.0
141
2.0
290
     0
  0
SCALE
  5
4A
102
{ACAD_REACTORS
330
47
102
}
330
47
100
AcDbScale
 70
     0
300
1:4
140
1.0
141
4.0
290
     0
  0
SCALE
  5
4B
102
{ACAD_REACTORS
330
47
102
}
330
47
100
AcDbScale
 70
     0
300
1:5
140
1.0
141
5.0
290
     0
  0
SCALE
  5
4C
102
{ACAD_REACTORS
330
47
102
}
330
47
100
AcDbScale
 70
     0
300
1:8
140
1.0
141
8.0
290
     0
  0
SCALE
  5
4D
102
{ACAD_REACTORS
330
47
102
}
330
47
100
AcDbScale
 70
     0
300
1:10
140
1.0
141
10.0
290
     0
  0
SCALE
  5
4E
102
{ACAD_REACTORS
330
47
102
}
330
47
100
AcDbScale
 70
     0
300
1:16
140
1.0
141
16.0
290
     0
  0
SCALE
  5
4F
102
{ACAD_REACTORS
330
47
102
}
330
47
100
AcDbScale
 70
     0
300
1:20
140
1.0
141
20.0
290
     0
  0
SCALE
  5
50
102
{ACAD_REACTORS
330
47
102
}
330
47
100
AcDbScale
 70
     0
300
1:30
140
1.0
141
30.0
290
     0
  0
SCALE
  5
51
102
{ACAD_REACTORS
330
47
102
}
330
47
100
AcDbScale
 70
     0
300
1:40
140
1.0
141
40.0
290
     0
  0
SCALE
  5
52
102
{ACAD_REACTORS
330
47
102
}
330
47
100
AcDbScale
 70
     0
300
1:50
140
1.0
141
50.0
290
     0
  0
SCALE
  5
53
102
{ACAD_REACTORS
330
47
102
}
330
47
100
AcDbScale
 70
     0
300
1:100
140
1.0
141
100.0
290
     0
  0
SCALE
  5
54
102
{ACAD_REACTORS
330
47
102
}
330
47
100
AcDbScale
 70
     0
300
2:1
140
2.0
141
1.0
290
     0
  0
SCALE
  5
55
102
{ACAD_REACTORS
330
47
102
}
330
47
100
AcDbScale
 70
     0
300
4:1
140
4.0
141
1.0
290
     0
  0
SCALE
  5
56
102
{ACAD_REACTORS
330
47
102
}
330
47
100
AcDbScale
 70
     0
300
8:1
140
8.0
141
1.0
290
     0
  0
SCALE
  5
57
102
{ACAD_REACTORS
330
47
102
}
330
47
100
AcDbScale
 70
     0
300
10:1
140
10.0
141
1.0
290
     0
  0
SCALE
  5
58
102
{ACAD_REACTORS
330
47
102
}
330
47
100
AcDbScale
 70
     0
300
100:1
140
100.0
141
1.0
290
     0
  0
SCALE
  5
59
102
{ACAD_REACTORS
330
47
102
}
330
47
100
AcDbScale
 70
     0
300
1/128" = 1'-0"
140
0.0078125
141
12.0
290
     0
  0
SCALE
  5
5A
102
{ACAD_REACTORS
330
47
102
}
330
47
100
AcDbScale
 70
     0
300
1/64" = 1'-0"
140
0.015625
141
12.0
290
     0
  0
SCALE
  5
5B
102
{ACAD_REACTORS
330
47
102
}
330
47
100
AcDbScale
 70
     0
300
1/32" = 1'-0"
140
0.03125
141
12.0
290
     0
  0
SCALE
  5
5C
102
{ACAD_REACTORS
330
47
102
}
330
47
100
AcDbScale
 70
     0
300
1/16" = 1'-0"
140
0.0625
141
12.0
290
     0
  0
SCALE
  5
5D
102
{ACAD_REACTORS
330
47
102
}
330
47
100
AcDbScale
 70
     0
300
3/32" = 1'-0"
140
0.09375
141
12.0
290
     0
  0
SCALE
  5
5E
102
{ACAD_REACTORS
330
47
102
}
330
47
100
AcDbScale
 70
     0
300
1/8" = 1'-0"
140
0.125
141
12.0
290
     0
  0
SCALE
  5
5F
102
{ACAD_REACTORS
330
47
102
}
330
47
100
AcDbScale
 70
     0
300
3/16" = 1'-0"
140
0.1875
141
12.0
290
     0
  0
SCALE
  5
60
102
{ACAD_REACTORS
330
47
102
}
330
47
100
AcDbScale
 70
     0
300
1/4" = 1'-0"
140
0.25
141
12.0
290
     0
  0
SCALE
  5
61
102
{ACAD_REACTORS
330
47
102
}
330
47
100
AcDbScale
 70
     0
300
3/8" = 1'-0"
140
0.375
141
12.0
290
     0
  0
SCALE
  5
62
102
{ACAD_REACTORS
330
47
102
}
330
47
100
AcDbScale
 70
     0
300
1/2" = 1'-0"
140
0.5
141
12.0
290
     0
  0
SCALE
  5
63
102
{ACAD_REACTORS
330
47
102
}
330
47
100
AcDbScale
 70
     0
300
3/4" = 1'-0"
140
0.75
141
12.0
290
     0
  0
SCALE
  5
64
102
{ACAD_REACTORS
330
47
102
}
330
47
100
AcDbScale
 70
     0
300
1" = 1'-0"
140
1.0
141
12.0
290
     0
  0
SCALE
  5
65
102
{ACAD_REACTORS
330
47
102
}
330
47
100
AcDbScale
 70
     0
300
1-1/2" = 1'-0"
140
1.5
141
12.0
290
     0
  0
SCALE
  5
66
102
{ACAD_REACTORS
330
47
102
}
330
47
100
AcDbScale
 70
     0
300
3" = 1'-0"
140
3.0
141
12.0
290
     0
  0
SCALE
  5
67
102
{ACAD_REACTORS
330
47
102
}
330
47
100
AcDbScale
 70
     0
300
6" = 1'-0"
140
6.0
141
12.0
290
     0
  0
SCALE
  5
68
102
{ACAD_REACTORS
330
47
102
}
330
47
100
AcDbScale
 70
     0
300
1'-0" = 1'-0"
140
12.0
141
12.0
290
     0
  0
ENDSEC
  0
EOF
